שיעורי גיטרה

  • Hebrew (Israel)
  • English (United Kingdom)

סולם D (רה מגור) פנטטוני מגורי

דוא הדפסה PDF

אלתור סולם בלוז על גיטרה.


התווים עליהם נחזור בסולם פנטטוני מגורי של D:

D E F# G A B

 

הסולם כפי שנראה בשיטת TAB:


הנגינה בסולם ממיתר 6 בס (E) למיתר 1 דק (E)

-----10--7--------------------------------------
------------10--7-------------------------------
--------------------9--7------------------------
--------------------------9--7------------------
--------------------------------9--7------------
-------------------------------------10--7------


הנגינה בסולם ממיתר 1 דק (E) למיתר 6 בס (E)

--------------------------------------7-10------
-------------------------------7-10-------------
-------------------------7--9-------------------
-------------------7--9-------------------------
-------------7--9-------------------------------
------7-10--------------------------------------

 

מבט על הסולם לאורך כל צוואר הגיטרה:

 

בהצלחה!!

 

ניוזלטר -חדשות ועידכונים

הרשם פה על מנת לקבל עדכונים באי-מייל לשיעורים חדשים באתר