שיעורי גיטרה

  • Hebrew (Israel)
  • English (United Kingdom)

סולם G (סול) פנטטוני מג'ורי - לגיטרה

דוא הדפסה PDF

אלתור סולם בלוז על גיטרה.

 

התווים עליהם נחזור בסולם פנטטוני מג'ורי של G:

A B D E G

 

 


איך הסולם נראה בשיטת TAB:

------3--0------------------------------------
------------3--0------------------------------
------------------2--0------------------------
------------------------2--0------------------
------------------------------2--0------------
------------------------------------3--0------

 

------------------------------------0--3------
------------------------------0--3------------
------------------------0--2------------------
------------------0--2------------------------
------------0--2------------------------------
------0--3------------------------------------

 

מבט על גבי צוואר הגיטרה:

 

 

ניוזלטר -חדשות ועידכונים

הרשם פה על מנת לקבל עדכונים באי-מייל לשיעורים חדשים באתר