שיעורי גיטרה

  • Hebrew (Israel)
  • English (United Kingdom)

סולם F (פה) פנטטוני מג'ורי - לגיטרה

דוא הדפסה PDF

אלתור סולם בלוז על גיטרה.

התווים עליהם נחזור בסולם פנטטוני מג'ורי של F:

D F G A C

 

איך הסולם נראה בשיטת TAB:

-----13-10----------------------------------------------
-------------13-10--------------------------------------
---------------------12-10------------------------------
-----------------------------12-10----------------------
-------------------------------------12-10--------------
---------------------------------------------13-10------


---------------------------------------------10-13------
-------------------------------------10-13--------------
-----------------------------10-12----------------------
---------------------10-12------------------------------
-------------10-12--------------------------------------
-----10-13----------------------------------------------



 

מבט על גבי צוואר הגיטרה:

 

 


 

 

ניוזלטר -חדשות ועידכונים

הרשם פה על מנת לקבל עדכונים באי-מייל לשיעורים חדשים באתר