שיעורי גיטרה

  • Hebrew (Israel)
  • English (United Kingdom)

סולם E (מי) פנטטוני מג'ורי - לגיטרה

דוא הדפסה PDF


אלתור סולם בלוז על גיטרה.

 

התווים עליהם נחזור בסולם פנטטוני מג'ורי של E:

F# B C# G# E

 

הסולם כפי שנראה בשיטת TAB:

-----12--9-----------------------------------------
------------12--9----------------------------------
-------------------11--9---------------------------
--------------------------11--9--------------------
---------------------------------11--9-------------
----------------------------------------12--9------

 


-----------------------------------------9-12------
----------------------------------9-12-------------
---------------------------9-11--------------------
--------------------9-11---------------------------
-------------9-11----------------------------------
------9-12-----------------------------------------

 

 

מבט על הסולם לאורך כל צוואר הגיטרה:

בהצלחה!!

 

ניוזלטר -חדשות ועידכונים

הרשם פה על מנת לקבל עדכונים באי-מייל לשיעורים חדשים באתר