שיעורי גיטרה

  • Hebrew (Israel)
  • English (United Kingdom)

סולם C (דו) פנטטוני מג'ורי - לגיטרה

דוא הדפסה PDF

 

אלתור סולם בלוז על גיטרה.

התווים עליהם נחזור בסולם פנטטוני מג'ורי של C:

A C D E G

 

הסולם כפי שנראה בשיטת TAB:

------8--5------------------------------------
------------8--5------------------------------
------------------7--5------------------------
------------------------7--5------------------
------------------------------7--5------------
------------------------------------8--5------

 


------------------------------------5--8------
------------------------------5--8------------
------------------------5--7------------------
------------------5--7------------------------
------------5--7------------------------------
------5--8------------------------------------

 

 

מבט על הסולם לאורך כל צוואר הגיטרה:

 

בהצלחה!!

 

 

ניוזלטר -חדשות ועידכונים

הרשם פה על מנת לקבל עדכונים באי-מייל לשיעורים חדשים באתר