שיעורי גיטרה

  • Hebrew (Israel)
  • English (United Kingdom)

סולם B (סי) פנטטוני מג'ורי - לגיטרה

דוא הדפסה PDF

 

אלתור סולם בלוז על גיטרה.

התווים עליהם נחזור בסולם פנטטוני מג'ורי של B:

G# C# D# F# B

 

הסולם כפי שנראה בשיטת TAB:

------7--4------------------------------------
------------7--4------------------------------
------------------6--4------------------------
------------------------6--4------------------
------------------------------6--4------------
------------------------------------7--4------

 


------------------------------------4--7------
------------------------------4--7------------
------------------------4--6------------------
------------------4--6------------------------
------------4--6------------------------------
------4--7------------------------------------

 

 

מבט על הסולם לאורך כל צוואר הגיטרה:

 

תודה!!

 

ניוזלטר -חדשות ועידכונים

הרשם פה על מנת לקבל עדכונים באי-מייל לשיעורים חדשים באתר