שיעורי גיטרה

  • Hebrew (Israel)
  • English (United Kingdom)

סולם A (לה) פנטטוני מג'ורי - לגיטרה

דוא הדפסה PDF

 

אלתור סולם בלוז על גיטרה.

התווים עליהם נחזור בסולם פנטטוני מג'ורי של A:

F# C# A B E

 

הסולם כפי שנראה בשיטת TAB:

------5--2------------------------------------
------------5--2------------------------------
------------------4--2------------------------
------------------------4--2------------------
------------------------------4--2------------
------------------------------------5--2------

 


------------------------------------2--5------
------------------------------2--5------------
------------------------2--4------------------
------------------2--4------------------------
------------2--4------------------------------
------2--5------------------------------------

 

מבט על הסולם לאורך כל צוואר הגיטרה:

 



בהצלחה !!

 

ניוזלטר -חדשות ועידכונים

הרשם פה על מנת לקבל עדכונים באי-מייל לשיעורים חדשים באתר