שיעורי גיטרה

  • Hebrew (Israel)
  • English (United Kingdom)

סולם G (סול) פנטטוני מינורי

דוא הדפסה PDF


אלתור סולם בלוז על גיטרה.


התווים עליהם נחזור בסולם פנטטוני מינורי של G:

G A# C D F

 

הסולם כפי שנראה בשיטת TAB:


הנגינה בסולם ממיתר 6 בס (E) למיתר 1 דק (E)

------6--3------------------------------------
------------6--3------------------------------
------------------5--3------------------------
------------------------5--3------------------
------------------------------5--3------------
------------------------------------6--3------



 

הנגינה בסולם ממיתר 1 דק (E) למיתר 6 בס (E)

------------------------------------3--6------
------------------------------3--6------------
------------------------3--5------------------
------------------3--5------------------------
------------3--5------------------------------
------3--6------------------------------------

 

מבט על הסולם לאורך כל צוואר הגיטרה:

 

בהצלחה!!

 

ניוזלטר -חדשות ועידכונים

הרשם פה על מנת לקבל עדכונים באי-מייל לשיעורים חדשים באתר