שיעורי גיטרה

  • Hebrew (Israel)
  • English (United Kingdom)

סולם F (פה) פנטטוני מינורי

דוא הדפסה PDF

אלתור סולם בלוז על גיטרה.

 

התווים עליהם נחזור בסולם פנטטוני מינורי של F:

F G# A# D# C

 

הסולם כפי שנראה בשיטת TAB:


הנגינה בסולם ממיתר 6 בס (E) למיתר 1 דק (E)

------------------------------------1--4------
------------------------------1--4------------
------------------------1--3------------------
------------------1--3------------------------
------------1--3------------------------------
------1--4------------------------------------

 

הנגינה בסולם ממיתר 1 דק (E) למיתר 6 בס (E)

------4--1------------------------------------
------------4--1------------------------------
------------------3--1------------------------
------------------------3--1------------------
------------------------------3--1------------
------------------------------------4--1------

 

מבט על הסולם לאורך כל צוואר הגיטרה:

 

 

ניוזלטר -חדשות ועידכונים

הרשם פה על מנת לקבל עדכונים באי-מייל לשיעורים חדשים באתר